5ちゃんねる ★スマホ版★ ■掲示板に戻る■ 全部 1- 最新50  

■ このスレッドは過去ログ倉庫に格納されています

誰でも知ってるようなフレーズまたは曲をTAB譜に

1 :ドレミファ名無シド:2008/08/04(月) 20:53:58 ID:Uj0QzZrl
ギター持ってたら一度はあるよね
TABじゃなくてもいいから晒してみよう

2 :ドレミファ名無シド:2008/08/04(月) 21:00:14 ID:ZvrNXINB
何が晒してみようだ
自分のネタが欲しいだけじゃねーか

3 :ドレミファ名無シド:2008/08/04(月) 21:16:24 ID:Uj0QzZrl
俺のも出来る限り晒すよ
かなり完成度低いがなw
1G・15 13 11       11 13 15 17
2G       13  13  13 
弾いた奴こらえてくれ


4 :電子彗星 ◆Denshi/odU :2008/08/04(月) 21:45:58 ID:z2Gtm19Y ?2BP(2900)
晒してみよう(笑)

5 :ドレミファ名無シド:2008/08/04(月) 21:46:10 ID:45eGjG8L
どこの世界の暗号だよ

6 :炎のがきんちょ:2008/08/04(月) 21:57:45 ID:P5+iEWZA
>>4

7 :ドレミファ名無シド:2008/08/05(火) 02:06:53 ID:VXXmih8A

17-19-12-14-----------------------------------------12-14-
-----------10-12------------------------------10-12-------
-----------------9-11---------------------9-11------------
----------------------7-9-------------7-9----------------
--------------------------7-9-----7-9--------------------
------------------------------5-7------------------------


8 :ドレミファ名無シド:2008/08/05(火) 09:18:42 ID:X5WsSPbD
E-------------------------------------------------------|
B-------------------------------------------------------|
G-------------------------------------------------------|
D-12--10--7--21-21--17-17-17--19-19--3------------------|
A-19--19-19--12-21--10--5--5---7-07--3------------------|
E-12--10-24--21-12--17-17-17--19-19-24------------------|



9 :ドレミファ名無シド:2008/08/05(火) 19:13:46 ID:tyKWygzF
弾けなすw

10 :ドレミファ名無シド:2008/08/05(火) 20:02:25 ID:CArSImWo
異弦同音に置き換えれば弾けないことはない

11 :ドレミファ名無シド:2008/08/05(火) 20:12:56 ID:YXdhO8aK
17-1-12-2----------------------------------------------32-14-
-----------10-3-----------------------------------16-2-------
-----------------9-24-------------------------3-20-----------
----------------------2-22---------------24-2----------------
---------------------------1-18-----4-22---------------------
--------------------------------3-12-------------------------

12 :ドレミファ名無シド:2008/08/05(火) 20:28:30 ID:CArSImWo
ワーミーでも使えば弾けないことはない

13 :ドレミファ名無シド:2008/08/05(火) 21:34:15 ID:tyKWygzF
ちょww
32はねーよw

14 :ドレミファ名無シド:2008/08/06(水) 01:39:37 ID:2CVEA7pa
-0-12-10---------0-13-12---------0-15-13---------0-17-15---------0-18-17---------0-20-18--
----------------------------------------------------------------------------------------
----------------------------------------------------------------------------------------
----------------------------------------------------------------------------------------
----------------------------------------------------------------------------------------
---------0-12-10---------0-13-12---------0-15-13---------0-17-15---------0-18-17----------

15 :ドレミファ名無シド:2008/08/06(水) 09:29:23 ID:v2na6wcx
-------
----2---
----2---
----2---
----0---
--------

16 :ドレミファ名無シド:2008/08/08(金) 12:43:44 ID:tZ4430uu
----0---
----3---
----0---
----0---
----0---
----3---


17 :korn:2008/08/08(金) 14:01:29 ID:pr7yEXcp
020302036666!
020302036666!

910bundada9910bundadago!


4 KB
■ このスレッドは過去ログ倉庫に格納されています

★スマホ版★ 掲示板に戻る 全部 前100 次100 最新50

read.cgi ver 05.04.00 2017/10/04 Walang Kapalit ★
FOX ★ DSO(Dynamic Shared Object)